  0
SECTION
  2
HEADER
  9
$ACADVER
  1
AC1015
  9
$ACADMAINTVER
 70
     6
  9
$DWGCODEPAGE
  3
ANSI_1254
  9
$INSBASE
 10
0.0
 20
0.0
 30
0.0
  9
$EXTMIN
 10
0.0
 20
0.0
 30
0.0
  9
$EXTMAX
 10
279.4
 20
215.9
 30
0.0
  9
$LIMMIN
 10
0.0
 20
0.0
  9
$LIMMAX
 10
279.4
 20
215.9
  9
$ORTHOMODE
 70
     0
  9
$REGENMODE
 70
     1
  9
$FILLMODE
 70
     1
  9
$QTEXTMODE
 70
     0
  9
$MIRRTEXT
 70
     1
  9
$LTSCALE
 40
1.0
  9
$ATTMODE
 70
     1
  9
$TEXTSIZE
 40
3.5
  9
$TRACEWID
 40
1.0
  9
$TEXTSTYLE
  7
Standard
  9
$CLAYER
  8
0
  9
$CELTYPE
  6
ByLayer
  9
$CECOLOR
 62
   256
  9
$CELTSCALE
 40
1.0
  9
$DISPSILH
 70
     0
  9
$DIMSCALE
 40
1.0
  9
$DIMASZ
 40
3.5
  9
$DIMEXO
 40
1.0
  9
$DIMDLI
 40
3.75
  9
$DIMRND
 40
0.0
  9
$DIMDLE
 40
0.0
  9
$DIMEXE
 40
1.0
  9
$DIMTP
 40
0.0
  9
$DIMTM
 40
0.0
  9
$DIMTXT
 40
3.5
  9
$DIMCEN
 40
2.5
  9
$DIMTSZ
 40
0.0
  9
$DIMTOL
 70
     0
  9
$DIMLIM
 70
     0
  9
$DIMTIH
 70
     1
  9
$DIMTOH
 70
     1
  9
$DIMSE1
 70
     0
  9
$DIMSE2
 70
     0
  9
$DIMTAD
 70
     1
  9
$DIMZIN
 70
     0
  9
$DIMBLK
  1

  9
$DIMASO
 70
     1
  9
$DIMSHO
 70
     1
  9
$DIMPOST
  1

  9
$DIMAPOST
  1

  9
$DIMALT
 70
     0
  9
$DIMALTD
 70
     3
  9
$DIMALTF
 40
0.0393700787
  9
$DIMLFAC
 40
1.0
  9
$DIMTOFL
 70
     1
  9
$DIMTVP
 40
0.0
  9
$DIMTIX
 70
     0
  9
$DIMSOXD
 70
     0
  9
$DIMSAH
 70
     0
  9
$DIMBLK1
  1

  9
$DIMBLK2
  1

  9
$DIMSTYLE
  2
ISO-25
  9
$DIMCLRD
 70
     0
  9
$DIMCLRE
 70
     0
  9
$DIMCLRT
 70
     0
  9
$DIMTFAC
 40
1.0
  9
$DIMGAP
 40
1.524
  9
$DIMJUST
 70
     0
  9
$DIMSD1
 70
     0
  9
$DIMSD2
 70
     0
  9
$DIMTOLJ
 70
     0
  9
$DIMTZIN
 70
     0
  9
$DIMALTZ
 70
     0
  9
$DIMALTTZ
 70
     0
  9
$DIMUPT
 70
     0
  9
$DIMDEC
 70
     2
  9
$DIMTDEC
 70
     2
  9
$DIMALTU
 70
     2
  9
$DIMALTTD
 70
     3
  9
$DIMTXSTY
  7
Standard
  9
$DIMAUNIT
 70
     0
  9
$DIMADEC
 70
     2
  9
$DIMALTRND
 40
0.0
  9
$DIMAZIN
 70
     0
  9
$DIMDSEP
 70
    44
  9
$DIMATFIT
 70
     3
  9
$DIMFRAC
 70
     0
  9
$DIMLDRBLK
  1

  9
$DIMLUNIT
 70
     2
  9
$DIMLWD
 70
    -2
  9
$DIMLWE
 70
    -2
  9
$DIMTMOVE
 70
     0
  9
$LUNITS
 70
     2
  9
$LUPREC
 70
     2
  9
$SKETCHINC
 40
1.0
  9
$FILLETRAD
 40
10.0
  9
$AUNITS
 70
     0
  9
$AUPREC
 70
     2
  9
$MENU
  1
.
  9
$ELEVATION
 40
0.0
  9
$PELEVATION
 40
0.0
  9
$THICKNESS
 40
0.0
  9
$LIMCHECK
 70
     0
  9
$CHAMFERA
 40
0.0
  9
$CHAMFERB
 40
0.0
  9
$CHAMFERC
 40
0.0
  9
$CHAMFERD
 40
0.0
  9
$SKPOLY
 70
     0
  9
$TDCREATE
 40
2459935.69982618
  9
$TDUCREATE
 40
2459935.57482618
  9
$TDUPDATE
 40
2459935.699826354
  9
$TDUUPDATE
 40
2459935.574826354
  9
$TDINDWG
 40
0.0000000116
  9
$TDUSRTIMER
 40
0.0000000116
  9
$USRTIMER
 70
     1
  9
$ANGBASE
 50
0.0
  9
$ANGDIR
 70
     0
  9
$PDMODE
 70
     0
  9
$PDSIZE
 40
-1.0
  9
$PLINEWID
 40
0.0
  9
$SPLFRAME
 70
     0
  9
$SPLINETYPE
 70
     6
  9
$SPLINESEGS
 70
     8
  9
$HANDSEED
  5
ED
  9
$SURFTAB1
 70
     6
  9
$SURFTAB2
 70
     6
  9
$SURFTYPE
 70
     6
  9
$SURFU
 70
     6
  9
$SURFV
 70
     6
  9
$UCSBASE
  2

  9
$UCSNAME
  2

  9
$UCSORG
 10
0.0
 20
0.0
 30
0.0
  9
$UCSXDIR
 10
1.0
 20
0.0
 30
0.0
  9
$UCSYDIR
 10
0.0
 20
1.0
 30
0.0
  9
$UCSORTHOREF
  2

  9
$UCSORTHOVIEW
 70
     0
  9
$UCSORGTOP
 10
0.0
 20
0.0
 30
0.0
  9
$UCSORGBOTTOM
 10
0.0
 20
0.0
 30
0.0
  9
$UCSORGLEFT
 10
0.0
 20
0.0
 30
0.0
  9
$UCSORGRIGHT
 10
0.0
 20
0.0
 30
0.0
  9
$UCSORGFRONT
 10
0.0
 20
0.0
 30
0.0
  9
$UCSORGBACK
 10
0.0
 20
0.0
 30
0.0
  9
$PUCSBASE
  2

  9
$PUCSNAME
  2

  9
$PUCSORG
 10
0.0
 20
0.0
 30
0.0
  9
$PUCSXDIR
 10
1.0
 20
0.0
 30
0.0
  9
$PUCSYDIR
 10
0.0
 20
1.0
 30
0.0
  9
$PUCSORTHOREF
  2

  9
$PUCSORTHOVIEW
 70
     0
  9
$PUCSORGTOP
 10
0.0
 20
0.0
 30
0.0
  9
$PUCSORGBOTTOM
 10
0.0
 20
0.0
 30
0.0
  9
$PUCSORGLEFT
 10
0.0
 20
0.0
 30
0.0
  9
$PUCSORGRIGHT
 10
0.0
 20
0.0
 30
0.0
  9
$PUCSORGFRONT
 10
0.0
 20
0.0
 30
0.0
  9
$PUCSORGBACK
 10
0.0
 20
0.0
 30
0.0
  9
$USERI1
 70
     0
  9
$USERI2
 70
     0
  9
$USERI3
 70
     0
  9
$USERI4
 70
     0
  9
$USERI5
 70
     0
  9
$USERR1
 40
0.0
  9
$USERR2
 40
0.0
  9
$USERR3
 40
0.0
  9
$USERR4
 40
0.0
  9
$USERR5
 40
0.0
  9
$WORLDVIEW
 70
     1
  9
$SHADEDGE
 70
     3
  9
$SHADEDIF
 70
    70
  9
$TILEMODE
 70
     1
  9
$MAXACTVP
 70
    64
  9
$PINSBASE
 10
0.0
 20
0.0
 30
0.0
  9
$PLIMCHECK
 70
     0
  9
$PEXTMIN
 10
1.0000000000E+20
 20
1.0000000000E+20
 30
1.0000000000E+20
  9
$PEXTMAX
 10
-1.0000000000E+20
 20
-1.0000000000E+20
 30
-1.0000000000E+20
  9
$PLIMMIN
 10
0.0
 20
0.0
  9
$PLIMMAX
 10
420.0
 20
297.0
  9
$UNITMODE
 70
     0
  9
$VISRETAIN
 70
     1
  9
$PLINEGEN
 70
     0
  9
$PSLTSCALE
 70
     1
  9
$TREEDEPTH
 70
  3020
  9
$CMLSTYLE
  2
Standard
  9
$CMLJUST
 70
     0
  9
$CMLSCALE
 40
20.0
  9
$PROXYGRAPHICS
 70
     1
  9
$MEASUREMENT
 70
     1
  9
$CELWEIGHT
370
    -1
  9
$ENDCAPS
280
     0
  9
$JOINSTYLE
280
     0
  9
$LWDISPLAY
290
     1
  9
$INSUNITS
 70
     4
  9
$HYPERLINKBASE
  1

  9
$STYLESHEET
  1

  9
$XEDIT
290
     1
  9
$CEPSNTYPE
380
     0
  9
$PSTYLEMODE
290
     1
  9
$FINGERPRINTGUID
  2
{c1313049-6673-4ccf-af1e-7b4f9816b377}
  9
$VERSIONGUID
  2
{FAEB1C32-E019-11D5-929B-00C0DF256EC4}
  9
$EXTNAMES
290
     1
  9
$PSVPSCALE
 40
0.0
  9
$OLESTARTUP
290
     0
  0
ENDSEC
  0
SECTION
  2
CLASSES
  0
CLASS
  1
ACDBDICTIONARYWDFLT
  2
AcDbDictionaryWithDefault
  3
ObjectDBX Classes
 90
        0
280
     0
281
     0
  0
CLASS
  1
VISUALSTYLE
  2
AcDbVisualStyle
  3
ObjectDBX Classes
 90
     4095
280
     0
281
     0
  0
CLASS
  1
MATERIAL
  2
AcDbMaterial
  3
ObjectDBX Classes
 90
     1153
280
     0
281
     0
  0
CLASS
  1
SCALE
  2
AcDbScale
  3
ObjectDBX Classes
 90
     1153
280
     0
281
     0
  0
CLASS
  1
TABLESTYLE
  2
AcDbTableStyle
  3
ObjectDBX Classes
 90
     4095
280
     0
281
     0
  0
CLASS
  1
MLEADERSTYLE
  2
AcDbMLeaderStyle
  3
ACDB_MLEADERSTYLE_CLASS
 90
     4095
280
     0
281
     0
  0
CLASS
  1
SUN
  2
AcDbSun
  3
SCENEOE
 90
     1153
280
     0
281
     0
  0
CLASS
  1
ACDBPLACEHOLDER
  2
AcDbPlaceHolder
  3
ObjectDBX Classes
 90
        0
280
     0
281
     0
  0
CLASS
  1
LAYOUT
  2
AcDbLayout
  3
ObjectDBX Classes
 90
        0
280
     0
281
     0
  0
ENDSEC
  0
SECTION
  2
TABLES
  0
TABLE
  2
VPORT
  5
8
330
0
100
AcDbSymbolTable
 70
     1
  0
VPORT
  5
29
330
8
100
AcDbSymbolTableRecord
100
AcDbViewportTableRecord
  2
*Active
 70
     0
 10
0.0
 20
0.0
 11
1.0
 21
1.0
 12
139.7
 22
107.95
 13
0.0
 23
0.0
 14
10.0
 24
10.0
 15
10.0
 25
10.0
 16
0.0
 26
0.0
 36
1.0
 17
0.0
 27
0.0
 37
0.0
 40
215.9
 41
1.2941176471
 42
50.0
 43
0.0
 44
0.0
 50
0.0
 51
0.0
 71
     0
 72
  2000
 73
     1
 74
     3
 75
     0
 76
     0
 77
     0
 78
     0
281
     0
 65
     1
110
0.0
120
0.0
130
0.0
111
1.0
121
0.0
131
0.0
112
0.0
122
1.0
132
0.0
 79
     0
146
0.0
  0
ENDTAB
  0
TABLE
  2
LTYPE
  5
5
330
0
100
AcDbSymbolTable
 70
     6
  0
LTYPE
  5
14
330
5
100
AcDbSymbolTableRecord
100
AcDbLinetypeTableRecord
  2
ByBlock
 70
     0
  3

 72
    65
 73
     0
 40
0.0
  0
LTYPE
  5
15
330
5
100
AcDbSymbolTableRecord
100
AcDbLinetypeTableRecord
  2
ByLayer
 70
     0
  3

 72
    65
 73
     0
 40
0.0
  0
LTYPE
  5
16
330
5
100
AcDbSymbolTableRecord
100
AcDbLinetypeTableRecord
  2
Continuous
 70
     0
  3
Solid line
 72
    65
 73
     0
 40
0.0
  0
LTYPE
  5
6E
330
5
100
AcDbSymbolTableRecord
100
AcDbLinetypeTableRecord
  2
HIDDEN
 70
     0
  3
Hidden __ __ __ __ __ __ __ __ __ __ __ __ __ __
 72
    65
 73
     2
 40
1.905
 49
1.27
 74
     0
 49
-0.635
 74
     0
  0
LTYPE
  5
6F
330
5
100
AcDbSymbolTableRecord
100
AcDbLinetypeTableRecord
  2
PHANTOM
 70
     0
  3
Phantom ______  __  __  ______  __  __  ______
 72
    65
 73
     6
 40
12.7
 49
6.35
 74
     0
 49
-1.27
 74
     0
 49
1.27
 74
     0
 49
-1.27
 74
     0
 49
1.27
 74
     0
 49
-1.27
 74
     0
  0
LTYPE
  5
70
330
5
100
AcDbSymbolTableRecord
100
AcDbLinetypeTableRecord
  2
CENTER
 70
     0
  3
Center ____ _ ____ _ ____ _ ____ _ ____ _ ____
 72
    65
 73
     4
 40
10.16
 49
6.35
 74
     0
 49
-1.27
 74
     0
 49
1.27
 74
     0
 49
-1.27
 74
     0
  0
LTYPE
  5
71
330
5
100
AcDbSymbolTableRecord
100
AcDbLinetypeTableRecord
  2
CENTERX2
 70
     0
  3
Center (2x) ________  __  ________  __  _____
 72
    65
 73
     4
 40
20.32
 49
12.7
 74
     0
 49
-2.54
 74
     0
 49
2.54
 74
     0
 49
-2.54
 74
     0
  0
LTYPE
  5
72
330
5
100
AcDbSymbolTableRecord
100
AcDbLinetypeTableRecord
  2
DOT2
 70
     0
  3
Dot (.5x) ........................................
 72
    65
 73
     2
 40
0.635
 49
0.0
 74
     0
 49
-0.635
 74
     0
  0
ENDTAB
  0
TABLE
  2
LAYER
  5
2
330
0
100
AcDbSymbolTable
 70
    17
  0
LAYER
  5
10
330
2
100
AcDbSymbolTableRecord
100
AcDbLayerTableRecord
  2
0
 70
     0
 62
     7
  6
Continuous
370
    -3
390
F
  0
LAYER
  5
73
330
2
100
AcDbSymbolTableRecord
100
AcDbLayerTableRecord
  2
FORMAT
 70
     0
 62
     7
  6
Continuous
370
    -3
390
F
  0
LAYER
  5
74
330
2
100
AcDbSymbolTableRecord
100
AcDbLayerTableRecord
  2
YARDIMCI_GEOMETRI
 70
     0
 62
    -6
  6
Continuous
290
     0
370
    -3
390
F
  0
LAYER
  5
75
330
2
100
AcDbSymbolTableRecord
100
AcDbLayerTableRecord
  2
SAYFA_CERCEVESI
 70
     0
 62
     7
  6
Continuous
370
    25
390
F
  0
LAYER
  5
76
330
2
100
AcDbSymbolTableRecord
100
AcDbLayerTableRecord
  2
ANTET
 70
     0
 62
     7
  6
Continuous
370
    -3
390
F
  0
LAYER
  5
77
330
2
100
AcDbSymbolTableRecord
100
AcDbLayerTableRecord
  2
OLCU
 70
     0
 62
   150
  6
Continuous
370
    -3
390
F
  0
LAYER
  5
78
330
2
100
AcDbSymbolTableRecord
100
AcDbLayerTableRecord
  2
METIN
 70
     0
 62
    96
  6
Continuous
370
    -3
390
F
  0
LAYER
  5
79
330
2
100
AcDbSymbolTableRecord
100
AcDbLayerTableRecord
  2
BALON
 70
     0
 62
     5
  6
Continuous
370
    -3
390
F
  0
LAYER
  5
7A
330
2
100
AcDbSymbolTableRecord
100
AcDbLayerTableRecord
  2
VURGU
 70
     0
 62
     7
  6
Continuous
370
    -3
390
F
  0
LAYER
  5
7B
330
2
100
AcDbSymbolTableRecord
100
AcDbLayerTableRecord
  2
SILIK
 70
     0
 62
     7
  6
Continuous
370
    -3
390
F
  0
LAYER
  5
7C
330
2
100
AcDbSymbolTableRecord
100
AcDbLayerTableRecord
  2
MODEL
 70
     0
 62
     7
  6
Continuous
370
    -3
390
F
  0
LAYER
  5
7D
330
2
100
AcDbSymbolTableRecord
100
AcDbLayerTableRecord
  2
DETAYLANDıRMA
 70
     0
 62
   190
  6
Continuous
370
    -3
390
F
  0
LAYER
  5
7E
330
2
100
AcDbSymbolTableRecord
100
AcDbLayerTableRecord
  2
TOLERANS
 70
     0
 62
   230
  6
Continuous
370
    -3
390
F
  0
LAYER
  5
7F
330
2
100
AcDbSymbolTableRecord
100
AcDbLayerTableRecord
  2
MERKEZ_CIZGILERI
 70
     0
 62
    30
  6
Continuous
370
    -3
390
F
  0
LAYER
  5
80
330
2
100
AcDbSymbolTableRecord
100
AcDbLayerTableRecord
  2
KESIT-DETAY_CIZGILERI
 70
     0
 62
     7
  6
Continuous
370
    -3
390
F
  0
LAYER
  5
81
330
2
100
AcDbSymbolTableRecord
100
AcDbLayerTableRecord
  2
\U+041E\U+0421\U+0415\U+0412\U+042B\U+0415
 70
     0
 62
     7
  6
Continuous
370
    -3
390
F
  0
LAYER
  5
82
330
2
100
AcDbSymbolTableRecord
100
AcDbLayerTableRecord
  2
\U+0412\U+041E\U+0414\U+042F\U+041D\U+042B\U+0415_\U+0417\U+041D\U+0410\U+041A\U+0418
 70
     0
 62
    11
  6
Continuous
370
    -3
390
F
  0
ENDTAB
  0
TABLE
  2
STYLE
  5
3
330
0
100
AcDbSymbolTable
 70
     1
  0
STYLE
  5
11
330
3
100
AcDbSymbolTableRecord
100
AcDbTextStyleTableRecord
  2
Standard
 70
     0
 40
0.0
 41
1.0
 50
0.0
 71
     0
 42
3.5
  3
txt
  4

  0
ENDTAB
  0
TABLE
  2
VIEW
  5
6
330
0
100
AcDbSymbolTable
 70
     0
  0
ENDTAB
  0
TABLE
  2
UCS
  5
7
330
0
100
AcDbSymbolTable
 70
     0
  0
ENDTAB
  0
TABLE
  2
APPID
  5
9
330
0
100
AcDbSymbolTable
 70
     1
  0
APPID
  5
12
330
9
100
AcDbSymbolTableRecord
100
AcDbRegAppTableRecord
  2
ACAD
 70
     0
  0
ENDTAB
  0
TABLE
  2
DIMSTYLE
  5
A
330
0
100
AcDbSymbolTable
 70
     1
100
AcDbDimStyleTable
  0
DIMSTYLE
105
27
330
A
100
AcDbSymbolTableRecord
100
AcDbDimStyleTableRecord
  2
ISO-25
 70
     0
 41
2.5
 42
0.625
 43
3.75
 44
1.25
 73
     0
 74
     0
 77
     1
 78
     8
140
2.5
141
2.5
143
0.0393700787
147
0.625
171
     3
172
     1
178
     0
271
     2
272
     2
274
     3
278
    44
283
     0
284
     8
340
11
  0
ENDTAB
  0
TABLE
  2
BLOCK_RECORD
  5
1
330
0
100
AcDbSymbolTable
 70
     5
  0
BLOCK_RECORD
  5
1F
330
1
100
AcDbSymbolTableRecord
100
AcDbBlockTableRecord
  2
*Model_Space
340
22
  0
BLOCK_RECORD
  5
1B
330
1
100
AcDbSymbolTableRecord
100
AcDbBlockTableRecord
  2
*Paper_Space
340
1E
  0
BLOCK_RECORD
  5
23
330
1
100
AcDbSymbolTableRecord
100
AcDbBlockTableRecord
  2
*Paper_Space0
340
26
  0
BLOCK_RECORD
  5
97
330
1
100
AcDbSymbolTableRecord
100
AcDbBlockTableRecord
  2
SW_CENTERMARKSYMBOL_0
340
0
102
{BLKREFS
331
A2
102
}
  0
BLOCK_RECORD
  5
AC
330
1
100
AcDbSymbolTableRecord
100
AcDbBlockTableRecord
  2
SW_CENTERMARKSYMBOL_1
340
0
102
{BLKREFS
331
B7
102
}
  0
BLOCK_RECORD
  5
BF
330
1
100
AcDbSymbolTableRecord
100
AcDbBlockTableRecord
  2
SW_CENTERMARKSYMBOL_2
340
0
102
{BLKREFS
331
CA
102
}
  0
BLOCK_RECORD
  5
D2
330
1
100
AcDbSymbolTableRecord
100
AcDbBlockTableRecord
  2
SW_CENTERMARKSYMBOL_3
340
0
102
{BLKREFS
331
DD
102
}
  0
ENDTAB
  0
ENDSEC
  0
SECTION
  2
BLOCKS
  0
BLOCK
  5
20
330
1F
100
AcDbEntity
  8
0
100
AcDbBlockBegin
  2
*Model_Space
 70
     0
 10
0.0
 20
0.0
 30
0.0
  3
*Model_Space
  1

  0
ENDBLK
  5
21
330
1F
100
AcDbEntity
  8
0
100
AcDbBlockEnd
  0
BLOCK
  5
1C
330
1B
100
AcDbEntity
 67
     1
  8
0
100
AcDbBlockBegin
  2
*Paper_Space
 70
     0
 10
0.0
 20
0.0
 30
0.0
  3
*Paper_Space
  1

  0
ENDBLK
  5
1D
330
1B
100
AcDbEntity
 67
     1
  8
0
100
AcDbBlockEnd
  0
BLOCK
  5
24
330
23
100
AcDbEntity
  8
0
100
AcDbBlockBegin
  2
*Paper_Space0
 70
     0
 10
0.0
 20
0.0
 30
0.0
  3
*Paper_Space0
  1

  0
ENDBLK
  5
25
330
23
100
AcDbEntity
  8
0
100
AcDbBlockEnd
  0
BLOCK
  5
98
330
97
100
AcDbEntity
  8
0
100
AcDbBlockBegin
  2
SW_CENTERMARKSYMBOL_0
 70
     0
 10
0.0
 20
0.0
 30
0.0
  3
SW_CENTERMARKSYMBOL_0
  1

  0
LINE
  5
9A
330
97
100
AcDbEntity
  8
FORMAT
 62
     0
100
AcDbLine
 10
0.0
 20
0.0
 30
0.0
 11
0.0
 21
2.5
 31
0.0
  0
LINE
  5
9B
330
97
100
AcDbEntity
  8
FORMAT
 62
     0
100
AcDbLine
 10
0.0
 20
0.0
 30
0.0
 11
-2.5
 21
0.0
 31
0.0
  0
LINE
  5
9C
330
97
100
AcDbEntity
  8
FORMAT
 62
     0
100
AcDbLine
 10
0.0
 20
0.0
 30
0.0
 11
0.0
 21
-2.5
 31
0.0
  0
LINE
  5
9D
330
97
100
AcDbEntity
  8
FORMAT
 62
     0
100
AcDbLine
 10
0.0
 20
0.0
 30
0.0
 11
2.5
 21
0.0
 31
0.0
  0
LINE
  5
9E
330
97
100
AcDbEntity
  8
FORMAT
 62
     0
100
AcDbLine
 10
0.0
 20
5.0
 30
0.0
 11
0.0
 21
47.5
 31
0.0
  0
LINE
  5
9F
330
97
100
AcDbEntity
  8
FORMAT
 62
     0
100
AcDbLine
 10
-5.0
 20
0.0
 30
0.0
 11
-47.5
 21
0.0
 31
0.0
  0
LINE
  5
A0
330
97
100
AcDbEntity
  8
FORMAT
 62
     0
100
AcDbLine
 10
0.0
 20
-5.0
 30
0.0
 11
0.0
 21
-47.5
 31
0.0
  0
LINE
  5
A1
330
97
100
AcDbEntity
  8
FORMAT
 62
     0
100
AcDbLine
 10
5.0
 20
0.0
 30
0.0
 11
47.5
 21
0.0
 31
0.0
  0
ENDBLK
  5
99
330
97
100
AcDbEntity
  8
0
100
AcDbBlockEnd
  0
BLOCK
  5
AD
330
AC
100
AcDbEntity
  8
0
100
AcDbBlockBegin
  2
SW_CENTERMARKSYMBOL_1
 70
     0
 10
0.0
 20
0.0
 30
0.0
  3
SW_CENTERMARKSYMBOL_1
  1

  0
LINE
  5
AF
330
AC
100
AcDbEntity
  8
FORMAT
 62
     0
100
AcDbLine
 10
0.0
 20
0.0
 30
0.0
 11
0.0
 21
2.5
 31
0.0
  0
LINE
  5
B0
330
AC
100
AcDbEntity
  8
FORMAT
 62
     0
100
AcDbLine
 10
0.0
 20
0.0
 30
0.0
 11
-2.5
 21
0.0
 31
0.0
  0
LINE
  5
B1
330
AC
100
AcDbEntity
  8
FORMAT
 62
     0
100
AcDbLine
 10
0.0
 20
0.0
 30
0.0
 11
0.0
 21
-2.5
 31
0.0
  0
LINE
  5
B2
330
AC
100
AcDbEntity
  8
FORMAT
 62
     0
100
AcDbLine
 10
0.0
 20
0.0
 30
0.0
 11
2.5
 21
0.0
 31
0.0
  0
LINE
  5
B3
330
AC
100
AcDbEntity
  8
FORMAT
 62
     0
100
AcDbLine
 10
0.0
 20
5.0
 30
0.0
 11
0.0
 21
47.5
 31
0.0
  0
LINE
  5
B4
330
AC
100
AcDbEntity
  8
FORMAT
 62
     0
100
AcDbLine
 10
-5.0
 20
0.0
 30
0.0
 11
-47.5
 21
0.0
 31
0.0
  0
LINE
  5
B5
330
AC
100
AcDbEntity
  8
FORMAT
 62
     0
100
AcDbLine
 10
0.0
 20
-5.0
 30
0.0
 11
0.0
 21
-47.5
 31
0.0
  0
LINE
  5
B6
330
AC
100
AcDbEntity
  8
FORMAT
 62
     0
100
AcDbLine
 10
5.0
 20
0.0
 30
0.0
 11
47.5
 21
0.0
 31
0.0
  0
ENDBLK
  5
AE
330
AC
100
AcDbEntity
  8
0
100
AcDbBlockEnd
  0
BLOCK
  5
C0
330
BF
100
AcDbEntity
  8
0
100
AcDbBlockBegin
  2
SW_CENTERMARKSYMBOL_2
 70
     0
 10
0.0
 20
0.0
 30
0.0
  3
SW_CENTERMARKSYMBOL_2
  1

  0
LINE
  5
C2
330
BF
100
AcDbEntity
  8
FORMAT
 62
     0
100
AcDbLine
 10
0.0
 20
0.0
 30
0.0
 11
0.0
 21
2.5
 31
0.0
  0
LINE
  5
C3
330
BF
100
AcDbEntity
  8
FORMAT
 62
     0
100
AcDbLine
 10
0.0
 20
0.0
 30
0.0
 11
-2.5
 21
0.0
 31
0.0
  0
LINE
  5
C4
330
BF
100
AcDbEntity
  8
FORMAT
 62
     0
100
AcDbLine
 10
0.0
 20
0.0
 30
0.0
 11
0.0
 21
-2.5
 31
0.0
  0
LINE
  5
C5
330
BF
100
AcDbEntity
  8
FORMAT
 62
     0
100
AcDbLine
 10
0.0
 20
0.0
 30
0.0
 11
2.5
 21
0.0
 31
0.0
  0
LINE
  5
C6
330
BF
100
AcDbEntity
  8
FORMAT
 62
     0
100
AcDbLine
 10
0.0
 20
5.0
 30
0.0
 11
0.0
 21
47.5
 31
0.0
  0
LINE
  5
C7
330
BF
100
AcDbEntity
  8
FORMAT
 62
     0
100
AcDbLine
 10
-5.0
 20
0.0
 30
0.0
 11
-47.5
 21
0.0
 31
0.0
  0
LINE
  5
C8
330
BF
100
AcDbEntity
  8
FORMAT
 62
     0
100
AcDbLine
 10
0.0
 20
-5.0
 30
0.0
 11
0.0
 21
-47.5
 31
0.0
  0
LINE
  5
C9
330
BF
100
AcDbEntity
  8
FORMAT
 62
     0
100
AcDbLine
 10
5.0
 20
0.0
 30
0.0
 11
47.5
 21
0.0
 31
0.0
  0
ENDBLK
  5
C1
330
BF
100
AcDbEntity
  8
0
100
AcDbBlockEnd
  0
BLOCK
  5
D3
330
D2
100
AcDbEntity
  8
0
100
AcDbBlockBegin
  2
SW_CENTERMARKSYMBOL_3
 70
     0
 10
0.0
 20
0.0
 30
0.0
  3
SW_CENTERMARKSYMBOL_3
  1

  0
LINE
  5
D5
330
D2
100
AcDbEntity
  8
FORMAT
 62
     0
100
AcDbLine
 10
0.0
 20
0.0
 30
0.0
 11
0.0
 21
2.5
 31
0.0
  0
LINE
  5
D6
330
D2
100
AcDbEntity
  8
FORMAT
 62
     0
100
AcDbLine
 10
0.0
 20
0.0
 30
0.0
 11
-2.5
 21
0.0
 31
0.0
  0
LINE
  5
D7
330
D2
100
AcDbEntity
  8
FORMAT
 62
     0
100
AcDbLine
 10
0.0
 20
0.0
 30
0.0
 11
0.0
 21
-2.5
 31
0.0
  0
LINE
  5
D8
330
D2
100
AcDbEntity
  8
FORMAT
 62
     0
100
AcDbLine
 10
0.0
 20
0.0
 30
0.0
 11
2.5
 21
0.0
 31
0.0
  0
LINE
  5
D9
330
D2
100
AcDbEntity
  8
FORMAT
 62
     0
100
AcDbLine
 10
0.0
 20
5.0
 30
0.0
 11
0.0
 21
47.5
 31
0.0
  0
LINE
  5
DA
330
D2
100
AcDbEntity
  8
FORMAT
 62
     0
100
AcDbLine
 10
-5.0
 20
0.0
 30
0.0
 11
-47.5
 21
0.0
 31
0.0
  0
LINE
  5
DB
330
D2
100
AcDbEntity
  8
FORMAT
 62
     0
100
AcDbLine
 10
0.0
 20
-5.0
 30
0.0
 11
0.0
 21
-47.5
 31
0.0
  0
LINE
  5
DC
330
D2
100
AcDbEntity
  8
FORMAT
 62
     0
100
AcDbLine
 10
5.0
 20
0.0
 30
0.0
 11
47.5
 21
0.0
 31
0.0
  0
ENDBLK
  5
D4
330
D2
100
AcDbEntity
  8
0
100
AcDbBlockEnd
  0
ENDSEC
  0
SECTION
  2
ENTITIES
  0
LINE
  5
83
330
1F
100
AcDbEntity
  8
0
  6
Continuous
 62
     7
370
    25
100
AcDbLine
 10
45.6595140085
 20
114.2105242894
 30
0.0
 11
45.6595140085
 21
14.2105242894
 31
0.0
  0
LINE
  5
84
330
1F
100
AcDbEntity
  8
0
  6
Continuous
 62
     7
370
    25
100
AcDbLine
 10
135.6595140085
 20
14.2105242894
 30
0.0
 11
135.6595140085
 21
114.2105242894
 31
0.0
  0
ARC
  5
85
330
1F
100
AcDbEntity
  8
0
  6
Continuous
 62
     7
370
    25
100
AcDbCircle
 10
135.6595140085
 20
114.2105242894
 30
0.0
 40
90.00000000000003
100
AcDbArc
 50
90.0
 51
180.0
  0
LINE
  5
86
330
1F
100
AcDbEntity
  8
0
  6
Continuous
 62
     7
370
    25
100
AcDbLine
 10
235.6595140085
 20
204.2105242894
 30
0.0
 11
135.6595140085
 21
204.2105242894
 31
0.0
  0
LINE
  5
87
330
1F
100
AcDbEntity
  8
0
  6
Continuous
 62
     7
370
    25
100
AcDbLine
 10
135.6595140085
 20
114.2105242894
 30
0.0
 11
235.6595140085
 21
114.2105242894
 31
0.0
  0
LINE
  5
88
330
1F
100
AcDbEntity
  8
0
  6
Continuous
 62
     7
370
    25
100
AcDbLine
 10
90.6595140085
 20
14.2105242894
 30
0.0
 11
135.6595140085
 21
14.2105242894
 31
0.0
  0
LINE
  5
89
330
1F
100
AcDbEntity
  8
0
  6
Continuous
 62
     7
370
    25
100
AcDbLine
 10
45.6595140085
 20
14.2105242894
 30
0.0
 11
90.6595140085
 21
14.2105242894
 31
0.0
  0
LINE
  5
8A
330
1F
100
AcDbEntity
  8
0
  6
Continuous
 62
     7
370
    25
100
AcDbLine
 10
235.6595140085
 20
159.2105242894
 30
0.0
 11
235.6595140085
 21
114.2105242894
 31
0.0
  0
LINE
  5
8B
330
1F
100
AcDbEntity
  8
0
  6
Continuous
 62
     7
370
    25
100
AcDbLine
 10
235.6595140085
 20
204.2105242894
 30
0.0
 11
235.6595140085
 21
159.2105242894
 31
0.0
  0
LINE
  5
8C
330
1F
100
AcDbEntity
  8
0
  6
Continuous
 62
     1
370
    25
100
AcDbLine
 10
45.6595140085
 20
114.2105242894
 30
0.0
 11
135.6595140085
 21
114.2105242894
 31
0.0
  0
LINE
  5
8D
330
1F
100
AcDbEntity
  8
0
  6
Continuous
 62
     1
370
    25
100
AcDbLine
 10
135.6595140085
 20
204.2105242894
 30
0.0
 11
135.6595140085
 21
114.2105242894
 31
0.0
  0
LINE
  5
8E
330
1F
100
AcDbEntity
  8
0
  6
Continuous
 62
     7
370
    25
100
AcDbLine
 10
-148.5404853102
 20
159.2105242894
 30
0.0
 11
-148.5404853102
 21
114.2105242894
 31
0.0
  0
LINE
  5
8F
330
1F
100
AcDbEntity
  8
0
  6
Continuous
 62
     7
370
    25
100
AcDbLine
 10
-58.5404853102
 20
114.2105242894
 30
0.0
 11
-58.5404853102
 21
159.2105242894
 31
0.0
  0
LINE
  5
90
330
1F
100
AcDbEntity
  8
0
  6
Continuous
 62
     7
370
    25
100
AcDbLine
 10
-148.5404853102
 20
114.2105242894
 30
0.0
 11
-148.5404853102
 21
14.2105242894
 31
0.0
  0
LINE
  5
91
330
1F
100
AcDbEntity
  8
0
  6
Continuous
 62
     7
370
    25
100
AcDbLine
 10
-58.5404853102
 20
14.2105242894
 30
0.0
 11
-58.5404853102
 21
114.2105242894
 31
0.0
  0
CIRCLE
  5
92
330
1F
100
AcDbEntity
  8
0
  6
Continuous
 62
     7
370
    25
100
AcDbCircle
 10
-103.5404853102
 20
159.2105242894
 30
0.0
 40
45.0
  0
CIRCLE
  5
93
330
1F
100
AcDbEntity
  8
0
  6
Continuous
 62
     7
370
    25
100
AcDbCircle
 10
-103.5404853102
 20
159.2105242894
 30
0.0
 40
39.59999999999999
  0
LINE
  5
94
330
1F
100
AcDbEntity
  8
0
  6
Continuous
 62
     7
370
    25
100
AcDbLine
 10
-148.5404853102
 20
14.2105242894
 30
0.0
 11
-58.5404853102
 21
14.2105242894
 31
0.0
  0
LINE
  5
95
330
1F
100
AcDbEntity
  8
0
  6
Continuous
 62
     1
370
    25
100
AcDbLine
 10
-103.5404853102
 20
114.2105242894
 30
0.0
 11
-58.5404853102
 21
114.2105242894
 31
0.0
  0
LINE
  5
96
330
1F
100
AcDbEntity
  8
0
  6
Continuous
 62
     1
370
    25
100
AcDbLine
 10
-148.5404853102
 20
114.2105242894
 30
0.0
 11
-103.5404853102
 21
114.2105242894
 31
0.0
  0
INSERT
  5
A2
330
1F
100
AcDbEntity
  8
FORMAT
 62
     7
100
AcDbBlockReference
  2
SW_CENTERMARKSYMBOL_0
 10
-103.5404853102
 20
159.2105242894
 30
0.0
  0
LINE
  5
A3
330
1F
100
AcDbEntity
  8
0
  6
Continuous
 62
     7
370
    25
100
AcDbLine
 10
235.6595140085
 20
371.192498655
 30
0.0
 11
135.6595140085
 21
371.192498655
 31
0.0
  0
LINE
  5
A4
330
1F
100
AcDbEntity
  8
0
  6
Continuous
 62
     7
370
    25
100
AcDbLine
 10
135.6595140085
 20
281.192498655
 30
0.0
 11
235.6595140085
 21
281.192498655
 31
0.0
  0
LINE
  5
A5
330
1F
100
AcDbEntity
  8
0
  6
Continuous
 62
     7
370
    25
100
AcDbLine
 10
135.6595140085
 20
371.192498655
 30
0.0
 11
90.6595140085
 21
371.192498655
 31
0.0
  0
LINE
  5
A6
330
1F
100
AcDbEntity
  8
0
  6
Continuous
 62
     7
370
    25
100
AcDbLine
 10
90.6595140085
 20
281.192498655
 30
0.0
 11
135.6595140085
 21
281.192498655
 31
0.0
  0
CIRCLE
  5
A7
330
1F
100
AcDbEntity
  8
0
  6
Continuous
 62
     7
370
    25
100
AcDbCircle
 10
90.6595140085
 20
326.192498655
 30
0.0
 40
39.60000000000002
  0
CIRCLE
  5
A8
330
1F
100
AcDbEntity
  8
0
  6
Continuous
 62
     7
370
    25
100
AcDbCircle
 10
90.6595140085
 20
326.192498655
 30
0.0
 40
45.00000000000006
  0
LINE
  5
A9
330
1F
100
AcDbEntity
  8
0
  6
Continuous
 62
     7
370
    25
100
AcDbLine
 10
235.6595140085
 20
371.192498655
 30
0.0
 11
235.6595140085
 21
281.192498655
 31
0.0
  0
LINE
  5
AA
330
1F
100
AcDbEntity
  8
0
  6
Continuous
 62
     1
370
    25
100
AcDbLine
 10
135.6595140085
 20
326.192498655
 30
0.0
 11
135.6595140085
 21
281.192498655
 31
0.0
  0
LINE
  5
AB
330
1F
100
AcDbEntity
  8
0
  6
Continuous
 62
     1
370
    25
100
AcDbLine
 10
135.6595140085
 20
371.192498655
 30
0.0
 11
135.6595140085
 21
326.192498655
 31
0.0
  0
INSERT
  5
B7
330
1F
100
AcDbEntity
  8
FORMAT
 62
     7
100
AcDbBlockReference
  2
SW_CENTERMARKSYMBOL_1
 10
90.6595140085
 20
326.192498655
 30
0.0
  0
LINE
  5
B8
330
1F
100
AcDbEntity
  8
0
  6
Continuous
 62
     7
370
    25
100
AcDbLine
 10
319.6972841187
 20
114.2105242894
 30
0.0
 11
319.6972841187
 21
14.2105242894
 31
0.0
  0
LINE
  5
B9
330
1F
100
AcDbEntity
  8
0
  6
Continuous
 62
     7
370
    25
100
AcDbLine
 10
409.6972841187
 20
14.2105242894
 30
0.0
 11
409.6972841187
 21
114.2105242894
 31
0.0
  0
LINE
  5
BA
330
1F
100
AcDbEntity
  8
0
  6
Continuous
 62
     7
370
    25
100
AcDbLine
 10
409.6972841187
 20
114.2105242894
 30
0.0
 11
409.6972841187
 21
159.2105242894
 31
0.0
  0
LINE
  5
BB
330
1F
100
AcDbEntity
  8
0
  6
Continuous
 62
     7
370
    25
100
AcDbLine
 10
319.6972841187
 20
159.2105242894
 30
0.0
 11
319.6972841187
 21
114.2105242894
 31
0.0
  0
LINE
  5
BC
330
1F
100
AcDbEntity
  8
0
  6
Continuous
 62
     7
370
    25
100
AcDbLine
 10
319.6972841187
 20
14.2105242894
 30
0.0
 11
409.6972841187
 21
14.2105242894
 31
0.0
  0
ARC
  5
BD
330
1F
100
AcDbEntity
  8
0
  6
Continuous
 62
     7
370
    25
100
AcDbCircle
 10
364.6972841187
 20
159.2105242894
 30
0.0
 40
45.00000000000006
100
AcDbArc
 50
0.0
 51
180.0
  0
LINE
  5
BE
330
1F
100
AcDbEntity
  8
0
  6
Continuous
 62
     1
370
    25
100
AcDbLine
 10
319.6972841187
 20
114.2105242894
 30
0.0
 11
409.6972841187
 21
114.2105242894
 31
0.0
  0
INSERT
  5
CA
330
1F
100
AcDbEntity
  8
FORMAT
 62
     7
100
AcDbBlockReference
  2
SW_CENTERMARKSYMBOL_2
 10
364.6972841187
 20
159.2105242894
 30
0.0
  0
LINE
  5
CB
330
1F
100
AcDbEntity
  8
0
  6
Continuous
 62
     7
370
    25
100
AcDbLine
 10
90.6595140085
 20
-183.9213250038
 30
0.0
 11
135.6595140085
 21
-183.9213250038
 31
0.0
  0
LINE
  5
CC
330
1F
100
AcDbEntity
  8
0
  6
Continuous
 62
     7
370
    25
100
AcDbLine
 10
135.6595140085
 20
-93.9213250038
 30
0.0
 11
90.6595140085
 21
-93.9213250038
 31
0.0
  0
LINE
  5
CD
330
1F
100
AcDbEntity
  8
0
  6
Continuous
 62
     7
370
    25
100
AcDbLine
 10
235.6595140085
 20
-93.9213250038
 30
0.0
 11
135.6595140085
 21
-93.9213250038
 31
0.0
  0
LINE
  5
CE
330
1F
100
AcDbEntity
  8
0
  6
Continuous
 62
     7
370
    25
100
AcDbLine
 10
135.6595140085
 20
-183.9213250038
 30
0.0
 11
235.6595140085
 21
-183.9213250038
 31
0.0
  0
ARC
  5
CF
330
1F
100
AcDbEntity
  8
0
  6
Continuous
 62
     7
370
    25
100
AcDbCircle
 10
90.6595140085
 20
-138.9213250038
 30
0.0
 40
45.00000000000001
100
AcDbArc
 50
90.0
 51
270.0
  0
LINE
  5
D0
330
1F
100
AcDbEntity
  8
0
  6
Continuous
 62
     7
370
    25
100
AcDbLine
 10
235.6595140085
 20
-93.9213250038
 30
0.0
 11
235.6595140085
 21
-183.9213250038
 31
0.0
  0
LINE
  5
D1
330
1F
100
AcDbEntity
  8
0
  6
Continuous
 62
     1
370
    25
100
AcDbLine
 10
135.6595140085
 20
-93.9213250038
 30
0.0
 11
135.6595140085
 21
-183.9213250038
 31
0.0
  0
INSERT
  5
DD
330
1F
100
AcDbEntity
  8
FORMAT
 62
     7
100
AcDbBlockReference
  2
SW_CENTERMARKSYMBOL_3
 10
90.6595140085
 20
-138.9213250038
 30
0.0
  0
LINE
  5
DE
330
1F
100
AcDbEntity
  8
0
  6
Continuous
 62
     7
370
    25
100
AcDbLine
 10
417.3055551756
 20
-26.622393746
 30
0.0
 11
346.594877057
 21
-67.4427993371
 31
0.0
  0
LINE
  5
DF
330
1F
100
AcDbEntity
  8
0
  6
Continuous
 62
     7
370
    25
100
AcDbLine
 10
391.5912200256
 20
-145.3871969514
 30
0.0
 11
462.3018981443
 21
-104.5667913602
 31
0.0
  0
LINE
  5
E0
330
1F
100
AcDbEntity
  8
0
  6
Continuous
 62
     7
370
    25
100
AcDbLine
 10
292.2732433879
 20
-161.5285171951
 30
0.0
 11
292.2732433879
 21
-243.1825983837
 31
0.0
  0
LINE
  5
E1
330
1F
100
AcDbEntity
  8
0
  6
Continuous
 62
     7
370
    25
100
AcDbLine
 10
382.2732433879
 20
-243.1825983837
 30
0.0
 11
382.2732433879
 21
-161.5285171951
 31
0.0
  0
SPLINE
  5
E2
330
1F
100
AcDbEntity
  8
0
  6
Continuous
 62
     7
370
    25
100
AcDbSpline
210
0.0
220
0.0
230
1.0
 70
     8
 71
     3
 72
    36
 73
    32
 74
     0
 42
0.00000001
 43
0.00000001
 40
0.0
 40
0.0
 40
0.0
 40
0.0
 40
0.0225101291122289
 40
0.0571004036528224
 40
0.0917834121570345
 40
0.1266415248948616
 40
0.1616031622058419
 40
0.196591338030083
 40
0.231554196722459
 40
0.2664583665468065
 40
0.3012841715955736
 40
0.3360242559951878
 40
0.3706815923069336
 40
0.4052673660275061
 40
0.439799015482963
 40
0.4742985478173452
 40
0.5087911433367929
 40
0.543303996991351
 40
0.5778582581551253
 40
0.6124800581085156
 40
0.6471972165512755
 40
0.6820358275059689
 40
0.7170189210956751
 40
0.752164789869978
 40
0.7874849096700849
 40
0.822981455922462
 40
0.8586445475454937
 40
0.8944495559982195
 40
0.9303550765874666
 40
0.9662829033042555
 40
0.9999999999999999
 40
0.9999999999999999
 40
0.9999999999999999
 40
0.9999999999999999
 10
346.594877056987
 20
-67.44279933711219
 30
0.0
 10
345.8857021043005
 20
-67.860168923634
 30
0.0
 10
344.0867707940013
 20
-68.91889105463491
 30
0.0
 10
341.2576816013722
 20
-70.75063692396274
 30
0.0
 10
338.1174288199033
 20
-72.9608821472946
 30
0.0
 10
335.0430302994285
 20
-75.31757969879204
 30
0.0
 10
332.0380945030349
 20
-77.81222477597288
 30
0.0
 10
329.1115978765779
 20
-80.43614190577334
 30
0.0
 10
326.2706668436491
 20
-83.1796304647345
 30
0.0
 10
323.5208111877147
 20
-86.03404036172938
 30
0.0
 10
320.8662860292558
 20
-88.99138134640647
 30
0.0
 10
318.3104735949608
 20
-92.0444089350765
 30
0.0
 10
315.8561113587582
 20
-95.18661477499154
 30
0.0
 10
313.5055245178805
 20
-98.41218731633386
 30
0.0
 10
311.260824117209
 20
-101.7159326182424
 30
0.0
 10
309.1240696207424
 20
-105.0931858512938
 30
0.0
 10
307.0973973127767
 20
-108.5397215782963
 30
0.0
 10
305.1832518886122
 20
-112.0514280343766
 30
0.0
 10
303.3843387232011
 20
-115.6243697547104
 30
0.0
 10
301.703632139079
 20
-119.254790379525
 30
0.0
 10
300.1443363745758
 20
-122.9392848235912
 30
0.0
 10
298.7100416199223
 20
-126.6745314143582
 30
0.0
 10
297.4048147408676
 20
-130.4570633277284
 30
0.0
 10
296.2332246293606
 20
-134.2830793853178
 30
0.0
 10
295.2003856037078
 20
-138.1482025115649
 30
0.0
 10
294.3117992098322
 20
-142.047204951746
 30
0.0
 10
293.5737370281
 20
-145.9736475948269
 30
0.0
 10
292.9912726864373
 20
-149.9197289960559
 30
0.0
 10
292.5747958434666
 20
-153.8747269234255
 30
0.0
 10
292.3195142995942
 20
-157.7486563863563
 30
0.0
 10
292.2883371409287
 20
-160.2955117618617
 30
0.0
 10
292.2732433879038
 20
-161.5285171951126
 30
0.0
  0
SPLINE
  5
E3
330
1F
100
AcDbEntity
  8
0
  6
Continuous
 62
     7
370
    25
100
AcDbSpline
210
0.0
220
0.0
230
1.0
 70
     8
 71
     3
 72
    32
 73
    28
 74
     0
 42
0.00000001
 43
0.00000001
 40
0.0
 40
0.0
 40
0.0
 40
0.0
 40
0.0031954405206476
 40
0.0476692371455533
 40
0.090540759611922
 40
0.1322603945412855
 40
0.1732321724335358
 40
0.2138042432198372
 40
0.2542613799171249
 40
0.2948199516731859
 40
0.3355935216903452
 40
0.3766615866499372
 40
0.4180611983069981
 40
0.4597755987028087
 40
0.5017468974215809
 40
0.5438910951939129
 40
0.5860966031405258
 40
0.6282658839419535
 40
0.6703487788459065
 40
0.7123442745415487
 40
0.754314954964174
 40
0.7963979642984549
 40
0.8387702932274147
 40
0.8816747226248726
 40
0.9254551846394267
 40
0.970523432272915
 40
1.0
 40
1.0
 40
1.0
 40
1.0
 10
382.2727790330258
 20
-161.567148840587
 30
0.0
 10
382.2727690946508
 20
-161.568941005841
 30
0.0
 10
382.2726208350429
 20
-161.5956763338634
 30
0.0
 10
382.275308112982
 20
-161.4980532059739
 30
0.0
 10
382.2997161369038
 20
-161.2602763529924
 30
0.0
 10
382.3577735242737
 20
-160.855377023705
 30
0.0
 10
382.4603155869233
 20
-160.3142708678251
 30
0.0
 10
382.6168240470658
 20
-159.6423532348322
 30
0.0
 10
382.8350556371615
 20
-158.8533838511672
 30
0.0
 10
383.1207776003986
 20
-157.961480698432
 30
0.0
 10
383.4773994289367
 20
-156.983554406565
 30
0.0
 10
383.9056815531714
 20
-155.9385266010443
 30
0.0
 10
384.4036400220336
 20
-154.846917750566
 30
0.0
 10
384.9662949283796
 20
-153.7306493274966
 30
0.0
 10
385.5855122439643
 20
-152.6126410789701
 30
0.0
 10
386.2499831613754
 20
-151.5161948510315
 30
0.0
 10
386.9454899930839
 20
-150.4640277904916
 30
0.0
 10
387.65548667103
 20
-149.4771131490822
 30
0.0
 10
388.3618731341875
 20
-148.5736417397024
 30
0.0
 10
389.0457000113958
 20
-147.7684011181964
 30
0.0
 10
389.6876794685836
 20
-147.0725245340385
 30
0.0
 10
390.2687524275486
 20
-146.4933939835837
 30
0.0
 10
390.76975272493
 20
-146.0350717126078
 30
0.0
 10
391.1749281631223
 20
-145.6963473585571
 30
0.0
 10
391.4608214448598
 20
-145.478190964907
 30
0.0
 10
391.6169788378866
 20
-145.3722069953591
 30
0.0
 10
391.613367560482
 20
-145.3746763191977
 30
0.0
 10
391.6119395864173
 20
-145.3756527411127
 30
0.0
  0
LWPOLYLINE
  5
E4
330
1F
100
AcDbEntity
  8
0
  6
Continuous
 62
     7
370
    25
100
AcDbPolyline
 90
       96
 70
   128
 43
0.0
 10
407.9839215066
 20
-47.2254100371
 10
408.0534914624
 20
-49.69402659
 10
408.2618971184
 20
-52.2321722722
 10
408.6082271695
 20
-54.8287484183
 10
409.0909672026
 20
-57.4724008617
 10
409.7080063183
 20
-60.1515695827
 10
410.4566463616
 20
-62.8545392582
 10
411.33361372
 20
-65.5694904896
 10
412.3350736385
 20
-68.284551486
 10
413.4566469875
 20
-70.9878499764
 10
414.6934294123
 20
-73.6675651243
 10
416.0400127779
 20
-76.3119792172
 10
417.490508818
 20
-78.9095289052
 10
419.0385748824
 20
-81.4488557643
 10
420.677441672
 20
-83.9188559643
 10
422.3999428395
 20
-86.3087288227
 10
424.1985463254
 20
-88.6080240338
 10
426.0653872944
 20
-90.8066873644
 10
427.9923025259
 20
-92.8951046194
 10
429.9708661099
 20
-94.8641436813
 10
431.9924262911
 20
-96.7051944434
 10
434.0481433015
 20
-98.4102064592
 10
436.1290280134
 20
-99.9717241449
 10
438.2259812475
 20
-101.382919381
 10
440.3298335608
 20
-102.6376213697
 10
442.4313853426
 20
-103.7303436186
 10
444.5214470415
 20
-104.6563079312
 10
446.5908793495
 20
-105.4114653013
 10
448.6306331657
 20
-105.9925136177
 10
450.6317891657
 20
-106.3969121041
 10
452.5855968034
 20
-106.6228924287
 10
454.4835125752
 20
-106.6694664371
 10
456.3172373782
 20
-106.5364304729
 10
458.0787528005
 20
-106.2243662687
 10
459.7603561834
 20
-105.7346384018
 10
461.3546943031
 20
-105.0693883275
 10
462.8547955246
 20
-104.2315250152
 10
464.2541002871
 20
-103.2247122279
 10
465.5464897867
 20
-102.0533525018
 10
466.7263127332
 20
-100.7225678949
 10
467.7884100609
 20
-99.2381775897
 10
468.7281374884
 20
-97.6066724473
 10
469.5413858268
 20
-95.8351866247
 10
470.224598948
 20
-93.9314663785
 10
470.774789335
 20
-91.903836193
 10
471.1895511451
 20
-89.7611623791
 10
471.4670707304
 20
-87.5128143043
 10
471.6061345685
 20
-85.1686234226
 10
471.6061345685
 20
-82.7388402843
 10
471.4670707304
 20
-80.2340897127
 10
471.1895511451
 20
-77.6653243449
 10
470.774789335
 20
-75.0437767383
 10
470.224598948
 20
-72.3809102534
 10
469.5413858268
 20
-69.688368928
 10
468.7281374884
 20
-66.97792656
 10
467.7884100609
 20
-64.2614352244
 10
466.7263127332
 20
-61.5507734466
 10
465.5464897867
 20
-58.8577942609
 10
464.2541002871
 20
-56.19427338
 10
462.8547955246
 20
-53.571857703
 10
461.3546943031
 20
-51.0020143865
 10
459.7603561834
 20
-48.4959807014
 10
458.0787528005
 20
-46.0647148955
 10
456.3172373782
 20
-43.7188482754
 10
454.4835125752
 20
-41.468638719
 10
452.5855968034
 20
-39.3239258201
 10
450.6317891657
 20
-37.2940878627
 10
448.6306331657
 20
-35.3880008116
 10
446.5908793495
 20
-33.6139995004
 10
444.5214470415
 20
-31.9798411856
 10
442.4313853426
 20
-30.4926716257
 10
440.3298335608
 20
-29.1589938347
 10
438.2259812475
 20
-27.9846396464
 10
436.1290280134
 20
-26.9747442127
 10
434.0481433015
 20
-26.1337235495
 10
431.9924262911
 20
-25.4652552261
 10
429.9708661099
 20
-24.9722622845
 10
427.9923025259
 20
-24.6569004572
 10
426.0653872944
 20
-24.5205487414
 10
424.1985463254
 20
-24.5638033684
 10
422.3999428395
 20
-24.7864751968
 10
420.677441672
 20
-25.1875905392
 10
419.0385748824
 20
-25.7653954204
 10
417.490508818
 20
-26.5173632466
 10
416.0400127779
 20
-27.4402058538
 10
414.6934294123
 20
-28.5298878862
 10
413.4566469875
 20
-29.7816444414
 10
412.3350736385
 20
-31.1900019065
 10
411.33361372
 20
-32.7488018928
 10
410.4566463616
 20
-34.4512281644
 10
409.7080063183
 20
-36.2898364444
 10
409.0909672026
 20
-38.2565869666
 10
408.6082271695
 20
-40.3428796315
 10
408.2618971184
 20
-42.539591612
 10
408.0534914624
 20
-44.8371172455
 10
407.9839215066
 20
-47.2254100371
  0
LWPOLYLINE
  5
E5
330
1F
100
AcDbEntity
  8
0
  6
Continuous
 62
     7
370
    25
100
AcDbPolyline
 90
       90
 70
   128
 43
0.0
 10
411.802298125
 20
-49.429711939
 10
411.8720489792
 20
-47.1890998702
 10
412.0809540466
 20
-45.0401830401
 10
412.4279725727
 20
-42.9936672442
 10
412.9113757286
 20
-41.0597481214
 10
413.5287552241
 20
-39.2480603594
 10
414.2770353057
 20
-37.5676296956
 10
415.1524880795
 20
-36.0268279508
 10
416.1507520839
 20
-34.6333313221
 10
417.266854018
 20
-33.3940821394
 10
418.4952335178
 20
-32.3152542798
 10
419.8297708587
 20
-31.4022224095
 10
421.2638174426
 20
-30.6595352073
 10
422.7902289217
 20
-30.0908927036
 10
424.4014007907
 20
-29.6991278466
 10
426.0893062724
 20
-29.4861923892
 10
427.8455363066
 20
-29.453147165
 10
429.6613414437
 20
-29.6001568039
 10
431.5276754337
 20
-29.926488911
 10
433.4352402947
 20
-30.4305177164
 10
435.3745326343
 20
-31.1097321738
 10
437.3358909958
 20
-31.9607484709
 10
439.3095439905
 20
-32.9793268874
 10
441.2856589783
 20
-34.1603929169
 10
443.2543910539
 20
-35.4980625478
 10
445.2059320931
 20
-36.9856715773
 10
447.1305596165
 20
-38.615808812
 10
449.0186852267
 20
-40.3803529902
 10
450.8609023768
 20
-42.2705132416
 10
452.6480332337
 20
-44.2768728829
 10
454.3711744013
 20
-46.3894363313
 10
456.0217412771
 20
-48.5976789019
 10
457.5915108198
 20
-50.8905992414
 10
459.0726625166
 20
-53.2567741359
 10
460.4578173442
 20
-55.6844154211
 10
461.7400745309
 20
-58.1614287104
 10
462.913045936
 20
-60.675473648
 10
463.9708878749
 20
-63.2140253885
 10
464.9083302323
 20
-65.7644369949
 10
465.7207027175
 20
-68.3140024449
 10
466.4039581316
 20
-70.8500199315
 10
466.9546925305
 20
-73.3598551434
 10
467.3701621832
 20
-75.8310042075
 10
467.6482972408
 20
-78.2511559838
 10
467.7877120484
 20
-80.6082533977
 10
467.7877120484
 20
-82.8905535084
 10
467.6482972408
 20
-85.0866860117
 10
467.3701621832
 20
-87.1857098859
 10
466.9546925305
 20
-89.1771678995
 10
466.4039581316
 20
-91.0511387091
 10
465.7207027175
 20
-92.7982862862
 10
464.9083302323
 20
-94.4099064295
 10
463.9708878749
 20
-95.8779701285
 10
462.913045936
 20
-97.1951635637
 10
461.7400745309
 20
-98.3549245437
 10
460.4578173442
 20
-99.3514751977
 10
459.0726625166
 20
-100.1798507603
 10
457.5915108198
 20
-100.8359243062
 10
456.0217412771
 20
-101.3164273101
 10
454.3711744013
 20
-101.61896593
 10
452.6480332337
 20
-101.7420329339
 10
450.8609023768
 20
-101.685015208
 10
449.0186852267
 20
-101.4481968119
 10
447.1305596165
 20
-101.0327575629
 10
445.2059320931
 20
-100.4407671583
 10
443.2543910539
 20
-99.6751748647
 10
441.2856589783
 20
-98.7397948244
 10
439.3095439905
 20
-97.6392870535
 10
437.3358909958
 20
-96.3791342266
 10
435.3745326343
 20
-94.9656143616
 10
433.4352402947
 20
-93.4057695433
 10
431.5276754337
 20
-91.7073708402
 10
429.6613414437
 20
-89.8788795892
 10
427.8455363066
 20
-87.9294052417
 10
426.0893062724
 20
-85.8686599808
 10
424.4014007907
 20
-83.7069103359
 10
422.7902289217
 20
-81.4549260348
 10
421.2638174426
 20
-79.1239263502
 10
419.8297708587
 20
-76.7255242051
 10
418.4952335178
 20
-74.2716683184
 10
417.266854018
 20
-71.7745836767
 10
416.1507520839
 20
-69.2467106301
 10
415.1524880795
 20
-66.700642915
 10
414.2770353057
 20
-64.1490649126
 10
413.5287552241
 20
-61.6046884562
 10
412.9113757286
 20
-59.0801895013
 10
412.4279725727
 20
-56.5881449747
 10
412.0809540466
 20
-54.1409701169
 10
411.8720489792
 20
-51.75085663
 10
411.802298125
 20
-49.429711939
  0
LWPOLYLINE
  5
E6
330
1F
100
AcDbEntity
  8
0
  6
Continuous
 62
     7
370
    25
100
AcDbPolyline
 90
       96
 70
   128
 43
0.0
 10
305.4534382345
 20
-224.8134158677
 10
307.6259977061
 20
-223.6395477423
 10
309.9281970397
 20
-222.5511364048
 10
312.3499693034
 20
-221.5529412012
 10
314.8807247032
 20
-220.6493269851
 10
317.5093968898
 20
-219.8442450314
 10
320.2244913484
 20
-219.1412157588
 10
323.0141356618
 20
-218.5433133354
 10
325.8661314253
 20
-218.0531522364
 10
328.768007587
 20
-217.6728758115
 10
331.7070749808
 20
-217.4041469128
 10
334.6704818128
 20
-217.2481406233
 10
337.6452698589
 20
-217.2055391189
 10
340.6184311279
 20
-217.2765286852
 10
343.5769647421
 20
-217.4607989027
 10
346.5079337867
 20
-217.7575440049
 10
349.3985218798
 20
-218.1654664007
 10
352.2360892153
 20
-218.6827823493
 10
355.008227833
 20
-219.3072297599
 10
357.7028158762
 20
-220.0360780826
 10
360.3080705969
 20
-220.8661402493
 10
362.8125998792
 20
-221.7937866092
 10
365.2054520538
 20
-222.8149608009
 10
367.4761637868
 20
-223.9251974895
 10
369.6148058337
 20
-225.1196418923
 10
371.6120264569
 20
-226.3930710081
 10
373.4590923188
 20
-227.7399164551
 10
375.1479266704
 20
-229.154288821
 10
376.6711446688
 20
-230.6300034153
 10
378.0220856691
 20
-232.1606073136
 10
379.1948423502
 20
-233.7394075744
 10
380.1842865455
 20
-235.3595005059
 10
380.9860916672
 20
-237.0138018539
 10
381.5967516255
 20
-238.6950777796
 10
382.01359616
 20
-240.3959764911
 10
382.2348025153
 20
-242.1090603911
 10
382.2594034125
 20
-243.8268385996
 10
382.0872912781
 20
-245.5417997095
 10
381.7192187147
 20
-247.2464446323
 10
381.1567952099
 20
-248.9333193895
 10
380.4024800985
 20
-250.5950477069
 10
379.4595718088
 20
-252.2243632695
 10
378.3321934386
 20
-253.8141414947
 10
377.0252747268
 20
-255.357430687
 10
375.5445304964
 20
-256.8474824353
 10
373.8964356651
 20
-258.2777811226
 10
372.0881969322
 20
-259.6420724165
 10
370.1277212658
 20
-260.9343906184
 10
368.023581327
 20
-262.1490847496
 10
365.7849779845
 20
-263.2808432617
 10
363.421700081
 20
-264.3247172626
 10
360.9440816295
 20
-265.2761421571
 10
358.3629566252
 20
-266.1309576061
 10
355.6896116709
 20
-266.8854257191
 10
352.9357366239
 20
-267.5362473991
 10
350.1133734791
 20
-268.0805767684
 10
347.2348637124
 20
-268.5160336132
 10
344.3127943147
 20
-268.8407137915
 10
341.3599427519
 20
-269.0531975595
 10
338.3892210926
 20
-269.1525557798
 10
335.4136195467
 20
-269.1383539842
 10
332.4461496627
 20
-269.0106542734
 10
329.4997874314
 20
-268.7700150458
 10
326.5874165451
 20
-268.4174885556
 10
323.7217720608
 20
-267.9546163113
 10
320.9153847125
 20
-267.3834223356
 10
318.1805261182
 20
-266.7064043143
 10
315.5291551186
 20
-265.9265226751
 10
312.9728654845
 20
-265.0471876418
 10
310.52283522
 20
-264.0722443229
 10
308.1897776842
 20
-263.0059558974
 10
305.9838947439
 20
-261.8529849733
 10
303.9148321641
 20
-260.6183731991
 10
301.9916374289
 20
-259.3075192179
 10
300.2227201796
 20
-257.9261550607
 10
298.6158154413
 20
-256.4803210815
 10
297.1779497994
 20
-254.9763395443
 10
295.9154106747
 20
-253.4207869779
 10
294.8337188295
 20
-251.8204654177
 10
293.9376042269
 20
-250.1823726627
 10
293.2309853482
 20
-248.5136716758
 10
292.7169520579
 20
-246.8216592619
 10
292.3977520927
 20
-245.1137341606
 10
292.274781233
 20
-243.397364694
 10
292.348577199
 20
-241.6800561089
 10
292.6188172997
 20
-239.9693177589
 10
293.084319844
 20
-238.2726302674
 10
293.7430493076
 20
-236.5974128173
 10
294.5921252341
 20
-234.9509907081
 10
295.6278348307
 20
-233.3405633249
 10
296.8456492028
 20
-231.7731726568
 10
298.2402431579
 20
-230.2556725044
 10
299.8055184916
 20
-228.7946985098
 10
301.534630653
 20
-227.3966391405
 10
303.4200186747
 20
-226.0676077544
 10
305.4534382345
 20
-224.8134158677
  0
LWPOLYLINE
  5
E7
330
1F
100
AcDbEntity
  8
0
  6
Continuous
 62
     7
370
    25
100
AcDbPolyline
 90
       90
 70
   128
 43
0.0
 10
309.2718148529
 20
-227.0177177696
 10
307.3663740866
 20
-228.1982379322
 10
305.6099278387
 20
-229.4534094249
 10
304.0112266363
 20
-230.7769790463
 10
302.5782351281
 20
-232.1623528392
 10
301.3180924059
 20
-233.6026289412
 10
300.2370764373
 20
-235.090631969
 10
299.3405727894
 20
-236.6189487664
 10
298.6330477984
 20
-238.1799653361
 10
298.1180263182
 20
-239.765904772
 10
297.7980741598
 20
-241.3688660035
 10
297.6747853089
 20
-242.9808631586
 10
297.7487739843
 20
-244.5938653484
 10
298.019671578
 20
-246.1998366772
 10
298.4861284921
 20
-247.7907762766
 10
299.1458208615
 20
-249.3587581655
 10
299.995462132
 20
-250.895970737
 10
301.0308194336
 20
-252.3947556755
 10
302.2467346684
 20
-253.8476461097
 10
303.6371502076
 20
-255.2474038127
 10
305.1951390712
 20
-256.5870552618
 10
306.9129394369
 20
-257.8599263811
 10
308.7819933097
 20
-259.0596757906
 10
310.7929891572
 20
-260.180326399
 10
312.9359082993
 20
-261.2162951815
 10
315.2000748207
 20
-262.1624209937
 10
317.5742087575
 20
-263.0139902844
 10
320.0464822939
 20
-263.7667605781
 10
322.6045786876
 20
-264.4169816113
 10
325.235753631
 20
-264.9614140153
 10
327.9268987428
 20
-265.3973454553
 10
330.6646068735
 20
-265.7226041428
 10
333.4352388989
 20
-265.9355696555
 10
336.2249916696
 20
-266.0351810098
 10
339.0199667777
 20
-266.020941947
 10
341.8062397977
 20
-265.8929234053
 10
344.5699296575
 20
-265.6517631668
 10
347.2972677935
 20
-265.2986626795
 10
349.974666744
 20
-264.8353810724
 10
352.5887878423
 20
-264.2642263911
 10
355.1266076685
 20
-263.5880440995
 10
357.575482932
 20
-262.8102029037
 10
359.9232134592
 20
-261.9345779696
 10
362.1581029749
 20
-260.9655316164
 10
364.2690173719
 20
-259.9078915843
 10
366.2454401808
 20
-258.7669269829
 10
368.0775249626
 20
-257.5483220402
 10
369.7561443632
 20
-256.258147785
 10
371.272935585
 20
-254.9028318003
 10
372.6203420505
 20
-253.4891262023
 10
373.7916510485
 20
-252.0240740011
 10
374.7810271765
 20
-250.5149740132
 10
375.5835414123
 20
-248.9693444987
 10
376.1951956704
 20
-247.3948857061
 10
376.6129427201
 20
-245.79944151
 10
376.8347013666
 20
-244.190960333
 10
376.8593668194
 20
-242.5774555476
 10
376.6868161966
 20
-240.9669655533
 10
376.3179091365
 20
-239.3675137303
 10
375.7544835157
 20
-237.7870684672
 10
374.9993462923
 20
-236.2335034627
 10
374.0562595219
 20
-234.7145584995
 10
372.9299216153
 20
-233.2378008851
 10
371.6259439314
 20
-231.8105877516
 10
370.1508228213
 20
-230.440029403
 10
368.5119072644
 20
-229.1329538922
 10
366.7173622553
 20
-227.8958730034
 10
364.7761281272
 20
-226.7349498116
 10
362.6978760107
 20
-225.6559679776
 10
360.4929596533
 20
-224.6643029347
 10
358.1723638376
 20
-223.7648951082
 10
355.747649655
 20
-222.9622253026
 10
353.2308969096
 20
-222.2602923787
 10
350.6346439372
 20
-221.6625933308
 10
347.9718251392
 20
-221.1721058657
 10
345.2557065452
 20
-220.7912735671
 10
342.4998197212
 20
-220.5219937224
 10
339.7178943569
 20
-220.3656078703
 10
336.9237898644
 20
-220.3228951171
 10
334.1314263317
 20
-220.3940682558
 10
331.3547151736
 20
-220.5787727053
 10
328.6074898254
 20
-220.8760882773
 10
325.9034368255
 20
-221.2845337606
 10
323.25602763
 20
-221.8020743003
 10
320.6784514982
 20
-222.4261315356
 10
318.183549785
 20
-223.1535964446
 10
315.783751965
 20
-223.9808448338
 10
313.4910137104
 20
-224.9037553933
 10
311.3167573277
 20
-225.9177302291
 10
309.2718148529
 20
-227.0177177696
  0
LWPOLYLINE
  5
E8
330
1F
100
AcDbEntity
  8
0
  6
Continuous
 62
     1
370
    25
100
AcDbPolyline
 90
       13
 70
   128
 43
0.0
 10
369.0930485413
 20
-143.1593346791
 10
371.196038057
 20
-144.2930278679
 10
373.2898317347
 20
-145.2610900703
 10
375.3652739472
 20
-146.0592881966
 10
377.413289314
 20
-146.6841319296
 10
379.4249223848
 20
-147.1328889864
 10
381.3913768001
 20
-147.4035970668
 10
383.3040537551
 20
-147.4950724331
 10
385.1545896002
 20
-147.4069150869
 10
386.9348924128
 20
-147.1395105177
 10
388.6371773818
 20
-146.6940280178
 10
390.2540008482
 20
-146.0724155688
 10
391.5912200256
 20
-145.3871969514
  0
LWPOLYLINE
  5
E9
330
1F
100
AcDbEntity
  8
0
  6
Continuous
 62
     1
370
    25
100
AcDbPolyline
 90
       37
 70
   128
 43
0.0
 10
346.594877057
 20
-67.4427993371
 10
345.682457057
 20
-68.014089351
 10
344.3093252927
 20
-69.0624800706
 10
343.0445664442
 20
-70.2742038479
 10
341.8937109803
 20
-71.643962123
 10
340.861791299
 20
-73.1657652916
 10
339.9533197225
 20
-74.8329588957
 10
339.1722687658
 20
-76.6382527217
 10
338.5220537662
 20
-78.5737526791
 10
338.0055179483
 20
-80.630995319
 10
337.6249199919
 20
-82.8009848429
 10
337.3819241549
 20
-85.0742324387
 10
337.2775929964
 20
-87.440797773
 10
337.3123827299
 20
-89.8903324578
 10
337.4861412289
 20
-92.4121253012
 10
337.7981086915
 20
-94.9951491446
 10
338.2469209635
 20
-97.6281090821
 10
338.8306155029
 20
-100.2994918497
 10
339.5466399622
 20
-102.9976161703
 10
340.3918633484
 20
-105.7106838328
 10
341.3625897148
 20
-108.4268312826
 10
342.454574322
 20
-111.1341814979
 10
343.6630421992
 20
-113.8208959252
 10
344.9827090237
 20
-116.4752262458
 10
346.4078042284
 20
-119.0855657487
 10
347.9320962344
 20
-121.6405000832
 10
349.5489197008
 20
-124.1288571717
 10
351.2512046698
 20
-126.5397560618
 10
353.0315074824
 20
-128.862654506
 10
354.8820433275
 20
-131.0873950604
 10
356.7947202825
 20
-133.2042495008
 10
358.7611746978
 20
-135.2039613611
 10
360.7728077686
 20
-137.0777864103
 10
362.8208231354
 20
-138.8175308881
 10
364.8962653479
 20
-140.4155873347
 10
366.9900590256
 20
-141.8649678558
 10
369.0930485413
 20
-143.1593346791
  0
LWPOLYLINE
  5
EA
330
1F
100
AcDbEntity
  8
0
  6
Continuous
 62
     1
370
    25
100
AcDbPolyline
 90
       13
 70
   128
 43
0.0
 10
369.0930485413
 20
-143.1593346791
 10
371.1264681011
 20
-144.4135265658
 10
373.0118561228
 20
-145.7425579519
 10
374.7409682843
 20
-147.1406173212
 10
376.3062436179
 20
-148.6015913158
 10
377.700837573
 20
-150.1190914682
 10
378.9186519451
 20
-151.6864821363
 10
379.9543615417
 20
-153.2969095195
 10
380.8034374683
 20
-154.9433316287
 10
381.4621669318
 20
-156.6185490789
 10
381.9276694761
 20
-158.3152365703
 10
382.1979095768
 20
-160.0259749203
 10
382.2732433879
 20
-161.5285171951
  0
LWPOLYLINE
  5
EB
330
1F
100
AcDbEntity
  8
0
  6
Continuous
 62
     1
370
    25
100
AcDbPolyline
 90
       37
 70
   128
 43
0.0
 10
292.2732433879
 20
-161.5285171951
 10
292.3116842605
 20
-160.4549792025
 10
292.5328906158
 20
-158.7418953025
 10
292.9497351503
 20
-157.040996591
 10
293.5603951086
 20
-155.3597206653
 10
294.3622002303
 20
-153.7054193173
 10
295.3516444256
 20
-152.0853263858
 10
296.5244011067
 20
-150.506526125
 10
297.875342107
 20
-148.9759222267
 10
299.3985601054
 20
-147.5002076324
 10
301.087394457
 20
-146.0858352665
 10
302.9344603189
 20
-144.7389898195
 10
304.9316809421
 20
-143.4655607038
 10
307.070322989
 20
-142.2711163009
 10
309.3410347221
 20
-141.1608796123
 10
311.7338868966
 20
-140.1397054206
 10
314.2384161789
 20
-139.2120590607
 10
316.8436708996
 20
-138.381996894
 10
319.5382589428
 20
-137.6531485713
 10
322.3103975605
 20
-137.0287011608
 10
325.147964896
 20
-136.5113852121
 10
328.0385529891
 20
-136.1034628163
 10
330.9695220337
 20
-135.8067177142
 10
333.9280556479
 20
-135.6224474966
 10
336.9012169169
 20
-135.5514579303
 10
339.876004963
 20
-135.5940594347
 10
342.839411795
 20
-135.7500657242
 10
345.7784791888
 20
-136.0187946229
 10
348.6803553505
 20
-136.3990710478
 10
351.532351114
 20
-136.8892321469
 10
354.3219954274
 20
-137.4871345703
 10
357.037089886
 20
-138.1901638429
 10
359.6657620726
 20
-138.9952457965
 10
362.1965174724
 20
-139.8988600126
 10
364.6182897361
 20
-140.8970552163
 10
366.9204890697
 20
-141.9854665537
 10
369.0930485413
 20
-143.1593346791
  0
ENDSEC
  0
SECTION
  2
OBJECTS
  0
DICTIONARY
  5
C
330
0
100
AcDbDictionary
281
     1
  3
ACAD_GROUP
350
D
  3
ACAD_LAYOUT
350
1A
  3
ACAD_MLINESTYLE
350
17
  3
ACAD_PLOTSETTINGS
350
19
  3
ACAD_PLOTSTYLENAME
350
E
  3
ACAD_SCALELIST
350
47
  3
DWGPROPS
350
EC
  0
DICTIONARY
  5
D
102
{ACAD_REACTORS
330
C
102
}
330
C
100
AcDbDictionary
281
     1
  0
DICTIONARY
  5
1A
102
{ACAD_REACTORS
330
C
102
}
330
C
100
AcDbDictionary
281
     1
  3
Layout1
350
1E
  3
Layout2
350
26
  3
Model
350
22
  0
DICTIONARY
  5
17
102
{ACAD_REACTORS
330
C
102
}
330
C
100
AcDbDictionary
281
     1
  3
Standard
350
18
  0
DICTIONARY
  5
19
102
{ACAD_REACTORS
330
C
102
}
330
C
100
AcDbDictionary
281
     1
  0
ACDBDICTIONARYWDFLT
  5
E
102
{ACAD_REACTORS
330
C
102
}
330
C
100
AcDbDictionary
281
     1
  3
Normal
350
F
100
AcDbDictionaryWithDefault
340
F
  0
DICTIONARY
  5
47
102
{ACAD_REACTORS
330
C
102
}
330
C
100
AcDbDictionary
281
     1
  3
A0
350
48
  3
A1
350
49
  3
A2
350
4A
  3
A3
350
4B
  3
A4
350
4C
  3
A5
350
4D
  3
A6
350
4E
  3
A7
350
4F
  3
A8
350
50
  3
A9
350
51
  3
B0
350
52
  3
B1
350
53
  3
B2
350
54
  3
B3
350
55
  3
B4
350
56
  3
B5
350
57
  3
B6
350
58
  3
B7
350
59
  3
B8
350
5A
  3
B9
350
5B
  3
C0
350
5C
  3
C1
350
5D
  3
C2
350
5E
  3
C3
350
5F
  3
C4
350
60
  3
C5
350
61
  3
C6
350
62
  3
C7
350
63
  3
C8
350
64
  3
C9
350
65
  3
D0
350
66
  3
D1
350
67
  3
D2
350
68
  0
XRECORD
  5
EC
102
{ACAD_REACTORS
330
C
102
}
330
C
100
AcDbXrecord
280
     1
  1
DWGPROPS COOKIE
  2

  3

  4

  6

  7

  8
b.kav
  9

300
=
301
=
302
=
303
=
304
=
305
=
306
=
307
=
308
=
309
=
 40
0.0
 41
2459935.57482618
 42
2459935.574826354
  1

 90
        0
  0
LAYOUT
  5
1E
102
{ACAD_REACTORS
330
1A
102
}
330
1A
100
AcDbPlotSettings
  1

  2
none_device
  4

  6

 40
0.0
 41
0.0
 42
0.0
 43
0.0
 44
0.0
 45
0.0
 46
0.0
 47
0.0
 48
0.0
 49
0.0
140
0.0
141
0.0
142
1.0
143
1.0
 70
   688
 72
     1
 73
     0
 74
     5
  7

 75
    16
147
1.0
148
0.0
149
0.0
100
AcDbLayout
  1
Layout1
 70
     1
 71
     1
 10
0.0
 20
0.0
 11
420.0
 21
297.0
 12
0.0
 22
0.0
 32
0.0
 14
1.0000000000E+20
 24
1.0000000000E+20
 34
1.0000000000E+20
 15
-1.0000000000E+20
 25
-1.0000000000E+20
 35
-1.0000000000E+20
146
0.0
 13
0.0
 23
0.0
 33
0.0
 16
1.0
 26
0.0
 36
0.0
 17
0.0
 27
1.0
 37
0.0
 76
     0
330
1B
  0
LAYOUT
  5
26
102
{ACAD_REACTORS
330
1A
102
}
330
1A
100
AcDbPlotSettings
  1

  2
none_device
  4

  6

 40
0.0
 41
0.0
 42
0.0
 43
0.0
 44
0.0
 45
0.0
 46
0.0
 47
0.0
 48
0.0
 49
0.0
140
0.0
141
0.0
142
1.0
143
1.0
 70
   688
 72
     1
 73
     0
 74
     5
  7

 75
    16
147
1.0
148
0.0
149
0.0
100
AcDbLayout
  1
Layout2
 70
     1
 71
     2
 10
0.0
 20
0.0
 11
0.0
 21
0.0
 12
0.0
 22
0.0
 32
0.0
 14
0.0
 24
0.0
 34
0.0
 15
0.0
 25
0.0
 35
0.0
146
0.0
 13
0.0
 23
0.0
 33
0.0
 16
1.0
 26
0.0
 36
0.0
 17
0.0
 27
1.0
 37
0.0
 76
     0
330
23
  0
LAYOUT
  5
22
102
{ACAD_REACTORS
330
1A
102
}
330
1A
100
AcDbPlotSettings
  1

  2
none_device
  4
Letter_(8.50_x_11.00_Inches)
  6

 40
6.35
 41
6.35
 42
6.35000508
 43
6.35000508
 44
215.9
 45
279.4
 46
0.0
 47
0.0
 48
0.0
 49
0.0
140
0.0
141
0.0
142
1.0
143
1.0
 70
  1712
 72
     1
 73
     0
 74
     0
  7

 75
     0
147
1.0
148
0.0
149
0.0
100
AcDbLayout
  1
Model
 70
     1
 71
     0
 10
0.0
 20
0.0
 11
279.4
 21
215.9
 12
0.0
 22
0.0
 32
0.0
 14
0.0
 24
0.0
 34
0.0
 15
279.4
 25
215.9
 35
0.0
146
0.0
 13
0.0
 23
0.0
 33
0.0
 16
1.0
 26
0.0
 36
0.0
 17
0.0
 27
1.0
 37
0.0
 76
     0
330
1F
331
29
  0
MLINESTYLE
  5
18
102
{ACAD_REACTORS
330
17
102
}
330
17
100
AcDbMlineStyle
  2
Standard
 70
     0
  3

 62
   256
 51
90.0
 52
90.0
 71
     2
 49
0.5
 62
   256
  6
BYLAYER
 49
-0.5
 62
   256
  6
BYLAYER
  0
ACDBPLACEHOLDER
  5
F
102
{ACAD_REACTORS
330
E
102
}
330
E
  0
SCALE
  5
48
102
{ACAD_REACTORS
330
47
102
}
330
47
100
AcDbScale
 70
     0
300
1:1
140
1.0
141
1.0
290
     1
  0
SCALE
  5
49
102
{ACAD_REACTORS
330
47
102
}
330
47
100
AcDbScale
 70
     0
300
1:2
140
1.0
141
2.0
290
     0
  0
SCALE
  5
4A
102
{ACAD_REACTORS
330
47
102
}
330
47
100
AcDbScale
 70
     0
300
1:4
140
1.0
141
4.0
290
     0
  0
SCALE
  5
4B
102
{ACAD_REACTORS
330
47
102
}
330
47
100
AcDbScale
 70
     0
300
1:5
140
1.0
141
5.0
290
     0
  0
SCALE
  5
4C
102
{ACAD_REACTORS
330
47
102
}
330
47
100
AcDbScale
 70
     0
300
1:8
140
1.0
141
8.0
290
     0
  0
SCALE
  5
4D
102
{ACAD_REACTORS
330
47
102
}
330
47
100
AcDbScale
 70
     0
300
1:10
140
1.0
141
10.0
290
     0
  0
SCALE
  5
4E
102
{ACAD_REACTORS
330
47
102
}
330
47
100
AcDbScale
 70
     0
300
1:16
140
1.0
141
16.0
290
     0
  0
SCALE
  5
4F
102
{ACAD_REACTORS
330
47
102
}
330
47
100
AcDbScale
 70
     0
300
1:20
140
1.0
141
20.0
290
     0
  0
SCALE
  5
50
102
{ACAD_REACTORS
330
47
102
}
330
47
100
AcDbScale
 70
     0
300
1:30
140
1.0
141
30.0
290
     0
  0
SCALE
  5
51
102
{ACAD_REACTORS
330
47
102
}
330
47
100
AcDbScale
 70
     0
300
1:40
140
1.0
141
40.0
290
     0
  0
SCALE
  5
52
102
{ACAD_REACTORS
330
47
102
}
330
47
100
AcDbScale
 70
     0
300
1:50
140
1.0
141
50.0
290
     0
  0
SCALE
  5
53
102
{ACAD_REACTORS
330
47
102
}
330
47
100
AcDbScale
 70
     0
300
1:100
140
1.0
141
100.0
290
     0
  0
SCALE
  5
54
102
{ACAD_REACTORS
330
47
102
}
330
47
100
AcDbScale
 70
     0
300
2:1
140
2.0
141
1.0
290
     0
  0
SCALE
  5
55
102
{ACAD_REACTORS
330
47
102
}
330
47
100
AcDbScale
 70
     0
300
4:1
140
4.0
141
1.0
290
     0
  0
SCALE
  5
56
102
{ACAD_REACTORS
330
47
102
}
330
47
100
AcDbScale
 70
     0
300
8:1
140
8.0
141
1.0
290
     0
  0
SCALE
  5
57
102
{ACAD_REACTORS
330
47
102
}
330
47
100
AcDbScale
 70
     0
300
10:1
140
10.0
141
1.0
290
     0
  0
SCALE
  5
58
102
{ACAD_REACTORS
330
47
102
}
330
47
100
AcDbScale
 70
     0
300
100:1
140
100.0
141
1.0
290
     0
  0
SCALE
  5
59
102
{ACAD_REACTORS
330
47
102
}
330
47
100
AcDbScale
 70
     0
300
1/128" = 1'-0"
140
0.0078125
141
12.0
290
     0
  0
SCALE
  5
5A
102
{ACAD_REACTORS
330
47
102
}
330
47
100
AcDbScale
 70
     0
300
1/64" = 1'-0"
140
0.015625
141
12.0
290
     0
  0
SCALE
  5
5B
102
{ACAD_REACTORS
330
47
102
}
330
47
100
AcDbScale
 70
     0
300
1/32" = 1'-0"
140
0.03125
141
12.0
290
     0
  0
SCALE
  5
5C
102
{ACAD_REACTORS
330
47
102
}
330
47
100
AcDbScale
 70
     0
300
1/16" = 1'-0"
140
0.0625
141
12.0
290
     0
  0
SCALE
  5
5D
102
{ACAD_REACTORS
330
47
102
}
330
47
100
AcDbScale
 70
     0
300
3/32" = 1'-0"
140
0.09375
141
12.0
290
     0
  0
SCALE
  5
5E
102
{ACAD_REACTORS
330
47
102
}
330
47
100
AcDbScale
 70
     0
300
1/8" = 1'-0"
140
0.125
141
12.0
290
     0
  0
SCALE
  5
5F
102
{ACAD_REACTORS
330
47
102
}
330
47
100
AcDbScale
 70
     0
300
3/16" = 1'-0"
140
0.1875
141
12.0
290
     0
  0
SCALE
  5
60
102
{ACAD_REACTORS
330
47
102
}
330
47
100
AcDbScale
 70
     0
300
1/4" = 1'-0"
140
0.25
141
12.0
290
     0
  0
SCALE
  5
61
102
{ACAD_REACTORS
330
47
102
}
330
47
100
AcDbScale
 70
     0
300
3/8" = 1'-0"
140
0.375
141
12.0
290
     0
  0
SCALE
  5
62
102
{ACAD_REACTORS
330
47
102
}
330
47
100
AcDbScale
 70
     0
300
1/2" = 1'-0"
140
0.5
141
12.0
290
     0
  0
SCALE
  5
63
102
{ACAD_REACTORS
330
47
102
}
330
47
100
AcDbScale
 70
     0
300
3/4" = 1'-0"
140
0.75
141
12.0
290
     0
  0
SCALE
  5
64
102
{ACAD_REACTORS
330
47
102
}
330
47
100
AcDbScale
 70
     0
300
1" = 1'-0"
140
1.0
141
12.0
290
     0
  0
SCALE
  5
65
102
{ACAD_REACTORS
330
47
102
}
330
47
100
AcDbScale
 70
     0
300
1-1/2" = 1'-0"
140
1.5
141
12.0
290
     0
  0
SCALE
  5
66
102
{ACAD_REACTORS
330
47
102
}
330
47
100
AcDbScale
 70
     0
300
3" = 1'-0"
140
3.0
141
12.0
290
     0
  0
SCALE
  5
67
102
{ACAD_REACTORS
330
47
102
}
330
47
100
AcDbScale
 70
     0
300
6" = 1'-0"
140
6.0
141
12.0
290
     0
  0
SCALE
  5
68
102
{ACAD_REACTORS
330
47
102
}
330
47
100
AcDbScale
 70
     0
300
1'-0" = 1'-0"
140
12.0
141
12.0
290
     0
  0
ENDSEC
  0
EOF
